ISO-10303-21;
HEADER;
FILE_DESCRIPTION (( 'STEP AP203' ),
    '1' );
FILE_NAME ('QB-CTZHWP-38.1-795-M.STEP',
    '2020-12-24T01:37:41',
    ( '' ),
    ( '' ),
    'SwSTEP 2.0',
    'SolidWorks 2020',
    '' );
FILE_SCHEMA (( 'CONFIG_CONTROL_DESIGN' ));
ENDSEC;

DATA;
#1 = CC_DESIGN_PERSON_AND_ORGANIZATION_ASSIGNMENT ( #8, #86, ( #138 ) ) ;
#2 = AXIS2_PLACEMENT_3D ( 'NONE', #104, #136, #24 ) ;
#3 = ADVANCED_FACE ( 'NONE', ( #154 ), #6, .F. ) ;
#4 = COORDINATED_UNIVERSAL_TIME_OFFSET ( 8, 0, .AHEAD. ) ;
#5 = COORDINATED_UNIVERSAL_TIME_OFFSET ( 8, 0, .AHEAD. ) ;
#6 = PLANE ( 'NONE',  #106 ) ;
#7 =( GEOMETRIC_REPRESENTATION_CONTEXT ( 3 ) GLOBAL_UNCERTAINTY_ASSIGNED_CONTEXT ( ( #21 ) ) GLOBAL_UNIT_ASSIGNED_CONTEXT ( ( #92, #147, #148 ) ) REPRESENTATION_CONTEXT ( 'NONE', 'WORKASPACE' ) );
#8 = PERSON_AND_ORGANIZATION ( #83, #167 ) ;
#9 = APPROVAL_STATUS ( 'not_yet_approved' ) ;
#10 = CARTESIAN_POINT ( 'NONE',  ( -3.000000000000000000, 0.000000000000000000, 0.000000000000000000 ) ) ;
#11 = ORIENTED_EDGE ( 'NONE', *, *, #97, .T. ) ;
#12 = CARTESIAN_POINT ( 'NONE',  ( -1.614212418857619014, 0.000000000000000000, 0.000000000000000000 ) ) ;
#13 = FACE_OUTER_BOUND ( 'NONE', #94, .T. ) ;
#14 = ORIENTED_EDGE ( 'NONE', *, *, #105, .T. ) ;
#15 = ADVANCED_BREP_SHAPE_REPRESENTATION ( 'QB-CTZHWP-38.1-795-M', ( #146, #144 ), #7 ) ;
#16 = APPROVAL_STATUS ( 'not_yet_approved' ) ;
#17 = VERTEX_POINT ( 'NONE', #89 ) ;
#18 = PERSON_AND_ORGANIZATION ( #83, #167 ) ;
#19 = EDGE_CURVE ( 'NONE', #168, #98, #67, .T. ) ;
#20 = DIRECTION ( 'NONE',  ( 0.000000000000000000, 0.000000000000000000, 1.000000000000000000 ) ) ;
#21 = UNCERTAINTY_MEASURE_WITH_UNIT (LENGTH_MEASURE( 1.000000000000000082E-05 ), #92, 'distance_accuracy_value', 'NONE');
#22 = DIRECTION ( 'NONE',  ( -0.000000000000000000, 0.000000000000000000, 1.000000000000000000 ) ) ;
#23 = CC_DESIGN_PERSON_AND_ORGANIZATION_ASSIGNMENT ( #18, #33, ( #138 ) ) ;
#24 = DIRECTION ( 'NONE',  ( 0.000000000000000000, 0.000000000000000000, 1.000000000000000000 ) ) ;
#25 = ORIENTED_EDGE ( 'NONE', *, *, #105, .F. ) ;
#26 = AXIS2_PLACEMENT_3D ( 'NONE', #12, #108, #174 ) ;
#27 = ADVANCED_FACE ( 'NONE', ( #110 ), #123, .T. ) ;
#28 = CC_DESIGN_APPROVAL ( #114, ( #138 ) ) ;
#29 = APPROVAL_DATE_TIME ( #87, #114 ) ;
#30 = CC_DESIGN_PERSON_AND_ORGANIZATION_ASSIGNMENT ( #172, #151, ( #116 ) ) ;
#31 = APPROVAL_PERSON_ORGANIZATION ( #103, #128, #100 ) ;
#32 = EDGE_LOOP ( 'NONE', ( #41, #137 ) ) ;
#33 = PERSON_AND_ORGANIZATION_ROLE ( 'creator' ) ;
#34 = DATE_AND_TIME ( #153, #80 ) ;
#35 = CARTESIAN_POINT ( 'NONE',  ( -3.000000000000000000, 0.000000000000000000, 0.000000000000000000 ) ) ;
#36 = APPROVAL_PERSON_ORGANIZATION ( #121, #166, #56 ) ;
#37 = CARTESIAN_POINT ( 'NONE',  ( 3.000000000000000000, 0.000000000000000000, 25.39999999999999858 ) ) ;
#38 = DESIGN_CONTEXT ( 'detailed design', #61, 'design' ) ;
#39 = PLANE ( 'NONE',  #115 ) ;
#40 = DIRECTION ( 'NONE',  ( 0.000000000000000000, 0.000000000000000000, 1.000000000000000000 ) ) ;
#41 = ORIENTED_EDGE ( 'NONE', *, *, #127, .F. ) ;
#42 = LOCAL_TIME ( 9, 37, 41.00000000000000000, #5 ) ;
#43 = CC_DESIGN_DATE_AND_TIME_ASSIGNMENT ( #118, #173, ( #68 ) ) ;
#44 = PERSON_AND_ORGANIZATION ( #83, #167 ) ;
#45 = CALENDAR_DATE ( 2020, 24, 12 ) ;
#46 = DATE_TIME_ROLE ( 'classification_date' ) ;
#47 = DATE_AND_TIME ( #119, #55 ) ;
#48 = CARTESIAN_POINT ( 'NONE',  ( -3.000000000000001332, 19.05000000000000071, 0.000000000000000000 ) ) ;
#49 = ORIENTED_EDGE ( 'NONE', *, *, #97, .F. ) ;
#50 = DIRECTION ( 'NONE',  ( -1.000000000000000000, 0.000000000000000000, -0.000000000000000000 ) ) ;
#51 = FACE_OUTER_BOUND ( 'NONE', #113, .T. ) ;
#52 = APPROVAL_PERSON_ORGANIZATION ( #74, #114, #62 ) ;
#53 = CC_DESIGN_PERSON_AND_ORGANIZATION_ASSIGNMENT ( #60, #133, ( #68 ) ) ;
#54 = ORIENTED_EDGE ( 'NONE', *, *, #127, .T. ) ;
#55 = LOCAL_TIME ( 9, 37, 41.00000000000000000, #4 ) ;
#56 = APPROVAL_ROLE ( '' ) ;
#57 = ORIENTED_EDGE ( 'NONE', *, *, #159, .T. ) ;
#58 = APPROVAL_DATE_TIME ( #34, #128 ) ;
#59 = DIRECTION ( 'NONE',  ( 0.000000000000000000, 0.000000000000000000, 1.000000000000000000 ) ) ;
#60 = PERSON_AND_ORGANIZATION ( #83, #167 ) ;
#61 = APPLICATION_CONTEXT ( 'configuration controlled 3d designs of mechanical parts and assemblies' ) ;
#62 = APPROVAL_ROLE ( '' ) ;
#63 = CARTESIAN_POINT ( 'NONE',  ( -1.614212418857619014, 0.000000000000000000, 0.000000000000000000 ) ) ;
#64 = CARTESIAN_POINT ( 'NONE',  ( -3.000000000000000000, 3.110602869834276865E-15, -25.39999999999999858 ) ) ;
#65 = ADVANCED_FACE ( 'NONE', ( #51 ), #39, .F. ) ;
#66 = DIRECTION ( 'NONE',  ( -1.000000000000000000, -0.000000000000000000, -0.000000000000000000 ) ) ;
#67 = LINE ( 'NONE', #79, #149 ) ;
#68 = PRODUCT_DEFINITION ( 'UNKNOWN', '', #138, #38 ) ;
#69 = CC_DESIGN_PERSON_AND_ORGANIZATION_ASSIGNMENT ( #44, #142, ( #140 ) ) ;
#70 = AXIS2_PLACEMENT_3D ( 'NONE', #63, #66, #40 ) ;
#71 = APPLICATION_CONTEXT ( 'configuration controlled 3d designs of mechanical parts and assemblies' ) ;
#72 = CC_DESIGN_DATE_AND_TIME_ASSIGNMENT ( #47, #46, ( #140 ) ) ;
#73 = ORIENTED_EDGE ( 'NONE', *, *, #19, .T. ) ;
#74 = PERSON_AND_ORGANIZATION ( #83, #167 ) ;
#75 = APPLICATION_PROTOCOL_DEFINITION ( 'international standard', 'config_control_design', 1994, #61 ) ;
#76 = APPLICATION_PROTOCOL_DEFINITION ( 'international standard', 'config_control_design', 1994, #71 ) ;
#77 = CALENDAR_DATE ( 2020, 24, 12 ) ;
#78 = CARTESIAN_POINT ( 'NONE',  ( -3.000000000000000000, 0.000000000000000000, 25.39999999999999858 ) ) ;
#79 = CARTESIAN_POINT ( 'NONE',  ( -1.614212418857619014, 0.000000000000000000, 25.39999999999999858 ) ) ;
#80 = LOCAL_TIME ( 9, 37, 41.00000000000000000, #129 ) ;
#81 = DIRECTION ( 'NONE',  ( -1.000000000000000000, -0.000000000000000000, -0.000000000000000000 ) ) ;
#82 = VECTOR ( 'NONE', #120, 1000.000000000000000 ) ;
#83 = PERSON ( 'UNSPECIFIED', 'UNSPECIFIED', 'UNSPECIFIED', ('UNSPECIFIED'), ('UNSPECIFIED'), ('UNSPECIFIED') ) ;
#84 = MECHANICAL_CONTEXT ( 'NONE', #71, 'mechanical' ) ;
#85 = EDGE_CURVE ( 'NONE', #17, #168, #126, .T. ) ;
#86 = PERSON_AND_ORGANIZATION_ROLE ( 'design_supplier' ) ;
#87 = DATE_AND_TIME ( #45, #111 ) ;
#88 = SECURITY_CLASSIFICATION_LEVEL ( 'unclassified' ) ;
#89 = CARTESIAN_POINT ( 'NONE',  ( 3.000000000000000000, 3.110602869834276865E-15, -25.39999999999999858 ) ) ;
#90 = DIRECTION ( 'NONE',  ( 0.000000000000000000, 0.000000000000000000, 1.000000000000000000 ) ) ;
#91 = ORIENTED_EDGE ( 'NONE', *, *, #19, .F. ) ;
#92 =( LENGTH_UNIT ( ) NAMED_UNIT ( * ) SI_UNIT ( .MILLI., .METRE. ) );
#93 = AXIS2_PLACEMENT_3D ( 'NONE', #10, #81, #90 ) ;
#94 = EDGE_LOOP ( 'NONE', ( #54, #14, #152, #91 ) ) ;
#95 = EDGE_LOOP ( 'NONE', ( #25, #156, #73, #49 ) ) ;
#96 = CLOSED_SHELL ( 'NONE', ( #165, #3, #27, #65 ) ) ;
#97 = EDGE_CURVE ( 'NONE', #125, #98, #141, .T. ) ;
#98 = VERTEX_POINT ( 'NONE', #78 ) ;
#99 = DIRECTION ( 'NONE',  ( 1.000000000000000000, 0.000000000000000000, 0.000000000000000000 ) ) ;
#100 = APPROVAL_ROLE ( '' ) ;
#101 = CARTESIAN_POINT ( 'NONE',  ( 3.000000000000001332, 19.05000000000000071, 0.000000000000000000 ) ) ;
#102 = CARTESIAN_POINT ( 'NONE',  ( 0.000000000000000000, 0.000000000000000000, 0.000000000000000000 ) ) ;
#103 = PERSON_AND_ORGANIZATION ( #83, #167 ) ;
#104 = CARTESIAN_POINT ( 'NONE',  ( 3.000000000000000000, 0.000000000000000000, 0.000000000000000000 ) ) ;
#105 = EDGE_CURVE ( 'NONE', #17, #125, #107, .T. ) ;
#106 = AXIS2_PLACEMENT_3D ( 'NONE', #101, #50, #22 ) ;
#107 = LINE ( 'NONE', #161, #82 ) ;
#108 = DIRECTION ( 'NONE',  ( -1.000000000000000000, -0.000000000000000000, -0.000000000000000000 ) ) ;
#109 = DIRECTION ( 'NONE',  ( 1.000000000000000000, 0.000000000000000000, 0.000000000000000000 ) ) ;
#110 = FACE_OUTER_BOUND ( 'NONE', #95, .T. ) ;
#111 = LOCAL_TIME ( 9, 37, 41.00000000000000000, #155 ) ;
#112 = CC_DESIGN_APPROVAL ( #166, ( #68 ) ) ;
#113 = EDGE_LOOP ( 'NONE', ( #57, #11 ) ) ;
#114 = APPROVAL ( #9, 'UNSPECIFIED' ) ;
#115 = AXIS2_PLACEMENT_3D ( 'NONE', #48, #109, #150 ) ;
#116 = PRODUCT ( 'QB-CTZHWP-38.1-795-M', 'QB-CTZHWP-38.1-795-M', '', ( #84 ) ) ;
#117 = CALENDAR_DATE ( 2020, 24, 12 ) ;
#118 = DATE_AND_TIME ( #77, #164 ) ;
#119 = CALENDAR_DATE ( 2020, 24, 12 ) ;
#120 = DIRECTION ( 'NONE',  ( -1.000000000000000000, -0.000000000000000000, -0.000000000000000000 ) ) ;
#121 = PERSON_AND_ORGANIZATION ( #83, #167 ) ;
#122 = AXIS2_PLACEMENT_3D ( 'NONE', #158, #162, #134 ) ;
#123 = CYLINDRICAL_SURFACE ( 'NONE', #26, 25.39999999999999858 ) ;
#124 = CYLINDRICAL_SURFACE ( 'NONE', #70, 25.39999999999999858 ) ;
#125 = VERTEX_POINT ( 'NONE', #64 ) ;
#126 = CIRCLE ( 'NONE', #122, 25.39999999999999858 ) ;
#127 = EDGE_CURVE ( 'NONE', #168, #17, #160, .T. ) ;
#128 = APPROVAL ( #157, 'UNSPECIFIED' ) ;
#129 = COORDINATED_UNIVERSAL_TIME_OFFSET ( 8, 0, .AHEAD. ) ;
#130 = SHAPE_DEFINITION_REPRESENTATION ( #169, #15 ) ;
#131 = CC_DESIGN_SECURITY_CLASSIFICATION ( #140, ( #138 ) ) ;
#132 = APPROVAL_DATE_TIME ( #143, #166 ) ;
#133 = PERSON_AND_ORGANIZATION_ROLE ( 'creator' ) ;
#134 = DIRECTION ( 'NONE',  ( 0.000000000000000000, 0.000000000000000000, 1.000000000000000000 ) ) ;
#135 = CIRCLE ( 'NONE', #93, 25.39999999999999858 ) ;
#136 = DIRECTION ( 'NONE',  ( -1.000000000000000000, -0.000000000000000000, -0.000000000000000000 ) ) ;
#137 = ORIENTED_EDGE ( 'NONE', *, *, #85, .F. ) ;
#138 = PRODUCT_DEFINITION_FORMATION_WITH_SPECIFIED_SOURCE ( 'ANY', '', #116, .NOT_KNOWN. ) ;
#139 = PRODUCT_RELATED_PRODUCT_CATEGORY ( 'detail', '', ( #116 ) ) ;
#140 = SECURITY_CLASSIFICATION ( '', '', #88 ) ;
#141 = CIRCLE ( 'NONE', #171, 25.39999999999999858 ) ;
#142 = PERSON_AND_ORGANIZATION_ROLE ( 'classification_officer' ) ;
#143 = DATE_AND_TIME ( #117, #42 ) ;
#144 = AXIS2_PLACEMENT_3D ( 'NONE', #102, #59, #99 ) ;
#145 = DIRECTION ( 'NONE',  ( -1.000000000000000000, -0.000000000000000000, -0.000000000000000000 ) ) ;
#146 = MANIFOLD_SOLID_BREP ( 'Ðý×', #96 ) ;
#147 =( NAMED_UNIT ( * ) PLANE_ANGLE_UNIT ( ) SI_UNIT ( $, .RADIAN. ) );
#148 =( NAMED_UNIT ( * ) SI_UNIT ( $, .STERADIAN. ) SOLID_ANGLE_UNIT ( ) );
#149 = VECTOR ( 'NONE', #163, 1000.000000000000000 ) ;
#150 = DIRECTION ( 'NONE',  ( 0.000000000000000000, 0.000000000000000000, -1.000000000000000000 ) ) ;
#151 = PERSON_AND_ORGANIZATION_ROLE ( 'design_owner' ) ;
#152 = ORIENTED_EDGE ( 'NONE', *, *, #159, .F. ) ;
#153 = CALENDAR_DATE ( 2020, 24, 12 ) ;
#154 = FACE_OUTER_BOUND ( 'NONE', #32, .T. ) ;
#155 = COORDINATED_UNIVERSAL_TIME_OFFSET ( 8, 0, .AHEAD. ) ;
#156 = ORIENTED_EDGE ( 'NONE', *, *, #85, .T. ) ;
#157 = APPROVAL_STATUS ( 'not_yet_approved' ) ;
#158 = CARTESIAN_POINT ( 'NONE',  ( 3.000000000000000000, 0.000000000000000000, 0.000000000000000000 ) ) ;
#159 = EDGE_CURVE ( 'NONE', #98, #125, #135, .T. ) ;
#160 = CIRCLE ( 'NONE', #2, 25.39999999999999858 ) ;
#161 = CARTESIAN_POINT ( 'NONE',  ( -1.614212418857619014, 3.110602869834276865E-15, -25.39999999999999858 ) ) ;
#162 = DIRECTION ( 'NONE',  ( -1.000000000000000000, -0.000000000000000000, -0.000000000000000000 ) ) ;
#163 = DIRECTION ( 'NONE',  ( -1.000000000000000000, -0.000000000000000000, -0.000000000000000000 ) ) ;
#164 = LOCAL_TIME ( 9, 37, 41.00000000000000000, #170 ) ;
#165 = ADVANCED_FACE ( 'NONE', ( #13 ), #124, .T. ) ;
#166 = APPROVAL ( #16, 'UNSPECIFIED' ) ;
#167 = ORGANIZATION ( 'UNSPECIFIED', 'UNSPECIFIED', '' ) ;
#168 = VERTEX_POINT ( 'NONE', #37 ) ;
#169 = PRODUCT_DEFINITION_SHAPE ( 'NONE', 'NONE',  #68 ) ;
#170 = COORDINATED_UNIVERSAL_TIME_OFFSET ( 8, 0, .AHEAD. ) ;
#171 = AXIS2_PLACEMENT_3D ( 'NONE', #35, #145, #20 ) ;
#172 = PERSON_AND_ORGANIZATION ( #83, #167 ) ;
#173 = DATE_TIME_ROLE ( 'creation_date' ) ;
#174 = DIRECTION ( 'NONE',  ( 0.000000000000000000, 0.000000000000000000, 1.000000000000000000 ) ) ;
#175 = CC_DESIGN_APPROVAL ( #128, ( #140 ) ) ;
ENDSEC;
END-ISO-10303-21;
